  0
SECTION
  2
HEADER
  9
$ACADVER
  1
AC1015
  9
$ACADMAINTVER
 70
     6
  9
$DWGCODEPAGE
  3
ANSI_1254
  9
$INSBASE
 10
0.0
 20
0.0
 30
0.0
  9
$EXTMIN
 10
0.0
 20
0.0
 30
0.0
  9
$EXTMAX
 10
279.4
 20
215.9
 30
0.0
  9
$LIMMIN
 10
0.0
 20
0.0
  9
$LIMMAX
 10
279.4
 20
215.9
  9
$ORTHOMODE
 70
     0
  9
$REGENMODE
 70
     1
  9
$FILLMODE
 70
     1
  9
$QTEXTMODE
 70
     0
  9
$MIRRTEXT
 70
     1
  9
$LTSCALE
 40
1.0
  9
$ATTMODE
 70
     1
  9
$TEXTSIZE
 40
3.5
  9
$TRACEWID
 40
1.0
  9
$TEXTSTYLE
  7
Standard
  9
$CLAYER
  8
0
  9
$CELTYPE
  6
ByLayer
  9
$CECOLOR
 62
   256
  9
$CELTSCALE
 40
1.0
  9
$DISPSILH
 70
     0
  9
$DIMSCALE
 40
1.0
  9
$DIMASZ
 40
3.5
  9
$DIMEXO
 40
1.0
  9
$DIMDLI
 40
3.75
  9
$DIMRND
 40
0.0
  9
$DIMDLE
 40
0.0
  9
$DIMEXE
 40
1.0
  9
$DIMTP
 40
0.0
  9
$DIMTM
 40
0.0
  9
$DIMTXT
 40
3.5
  9
$DIMCEN
 40
2.5
  9
$DIMTSZ
 40
0.0
  9
$DIMTOL
 70
     0
  9
$DIMLIM
 70
     0
  9
$DIMTIH
 70
     1
  9
$DIMTOH
 70
     1
  9
$DIMSE1
 70
     0
  9
$DIMSE2
 70
     0
  9
$DIMTAD
 70
     1
  9
$DIMZIN
 70
     0
  9
$DIMBLK
  1

  9
$DIMASO
 70
     1
  9
$DIMSHO
 70
     1
  9
$DIMPOST
  1

  9
$DIMAPOST
  1

  9
$DIMALT
 70
     0
  9
$DIMALTD
 70
     3
  9
$DIMALTF
 40
0.0393700787
  9
$DIMLFAC
 40
1.0
  9
$DIMTOFL
 70
     1
  9
$DIMTVP
 40
0.0
  9
$DIMTIX
 70
     0
  9
$DIMSOXD
 70
     0
  9
$DIMSAH
 70
     0
  9
$DIMBLK1
  1

  9
$DIMBLK2
  1

  9
$DIMSTYLE
  2
ISO-25
  9
$DIMCLRD
 70
     0
  9
$DIMCLRE
 70
     0
  9
$DIMCLRT
 70
     0
  9
$DIMTFAC
 40
1.0
  9
$DIMGAP
 40
1.524
  9
$DIMJUST
 70
     0
  9
$DIMSD1
 70
     0
  9
$DIMSD2
 70
     0
  9
$DIMTOLJ
 70
     0
  9
$DIMTZIN
 70
     0
  9
$DIMALTZ
 70
     0
  9
$DIMALTTZ
 70
     0
  9
$DIMUPT
 70
     0
  9
$DIMDEC
 70
     2
  9
$DIMTDEC
 70
     2
  9
$DIMALTU
 70
     2
  9
$DIMALTTD
 70
     3
  9
$DIMTXSTY
  7
Standard
  9
$DIMAUNIT
 70
     0
  9
$DIMADEC
 70
     2
  9
$DIMALTRND
 40
0.0
  9
$DIMAZIN
 70
     0
  9
$DIMDSEP
 70
    44
  9
$DIMATFIT
 70
     3
  9
$DIMFRAC
 70
     0
  9
$DIMLDRBLK
  1

  9
$DIMLUNIT
 70
     2
  9
$DIMLWD
 70
    -2
  9
$DIMLWE
 70
    -2
  9
$DIMTMOVE
 70
     0
  9
$LUNITS
 70
     2
  9
$LUPREC
 70
     2
  9
$SKETCHINC
 40
1.0
  9
$FILLETRAD
 40
10.0
  9
$AUNITS
 70
     0
  9
$AUPREC
 70
     2
  9
$MENU
  1
.
  9
$ELEVATION
 40
0.0
  9
$PELEVATION
 40
0.0
  9
$THICKNESS
 40
0.0
  9
$LIMCHECK
 70
     0
  9
$CHAMFERA
 40
0.0
  9
$CHAMFERB
 40
0.0
  9
$CHAMFERC
 40
0.0
  9
$CHAMFERD
 40
0.0
  9
$SKPOLY
 70
     0
  9
$TDCREATE
 40
2460697.540981621
  9
$TDUCREATE
 40
2460697.415981621
  9
$TDUPDATE
 40
2460697.540981805
  9
$TDUUPDATE
 40
2460697.415981805
  9
$TDINDWG
 40
0.0000000116
  9
$TDUSRTIMER
 40
0.0000000116
  9
$USRTIMER
 70
     1
  9
$ANGBASE
 50
0.0
  9
$ANGDIR
 70
     0
  9
$PDMODE
 70
     0
  9
$PDSIZE
 40
-1.0
  9
$PLINEWID
 40
0.0
  9
$SPLFRAME
 70
     0
  9
$SPLINETYPE
 70
     6
  9
$SPLINESEGS
 70
     8
  9
$HANDSEED
  5
B3
  9
$SURFTAB1
 70
     6
  9
$SURFTAB2
 70
     6
  9
$SURFTYPE
 70
     6
  9
$SURFU
 70
     6
  9
$SURFV
 70
     6
  9
$UCSBASE
  2

  9
$UCSNAME
  2

  9
$UCSORG
 10
0.0
 20
0.0
 30
0.0
  9
$UCSXDIR
 10
1.0
 20
0.0
 30
0.0
  9
$UCSYDIR
 10
0.0
 20
1.0
 30
0.0
  9
$UCSORTHOREF
  2

  9
$UCSORTHOVIEW
 70
     0
  9
$UCSORGTOP
 10
0.0
 20
0.0
 30
0.0
  9
$UCSORGBOTTOM
 10
0.0
 20
0.0
 30
0.0
  9
$UCSORGLEFT
 10
0.0
 20
0.0
 30
0.0
  9
$UCSORGRIGHT
 10
0.0
 20
0.0
 30
0.0
  9
$UCSORGFRONT
 10
0.0
 20
0.0
 30
0.0
  9
$UCSORGBACK
 10
0.0
 20
0.0
 30
0.0
  9
$PUCSBASE
  2

  9
$PUCSNAME
  2

  9
$PUCSORG
 10
0.0
 20
0.0
 30
0.0
  9
$PUCSXDIR
 10
1.0
 20
0.0
 30
0.0
  9
$PUCSYDIR
 10
0.0
 20
1.0
 30
0.0
  9
$PUCSORTHOREF
  2

  9
$PUCSORTHOVIEW
 70
     0
  9
$PUCSORGTOP
 10
0.0
 20
0.0
 30
0.0
  9
$PUCSORGBOTTOM
 10
0.0
 20
0.0
 30
0.0
  9
$PUCSORGLEFT
 10
0.0
 20
0.0
 30
0.0
  9
$PUCSORGRIGHT
 10
0.0
 20
0.0
 30
0.0
  9
$PUCSORGFRONT
 10
0.0
 20
0.0
 30
0.0
  9
$PUCSORGBACK
 10
0.0
 20
0.0
 30
0.0
  9
$USERI1
 70
     0
  9
$USERI2
 70
     0
  9
$USERI3
 70
     0
  9
$USERI4
 70
     0
  9
$USERI5
 70
     0
  9
$USERR1
 40
0.0
  9
$USERR2
 40
0.0
  9
$USERR3
 40
0.0
  9
$USERR4
 40
0.0
  9
$USERR5
 40
0.0
  9
$WORLDVIEW
 70
     1
  9
$SHADEDGE
 70
     3
  9
$SHADEDIF
 70
    70
  9
$TILEMODE
 70
     1
  9
$MAXACTVP
 70
    64
  9
$PINSBASE
 10
0.0
 20
0.0
 30
0.0
  9
$PLIMCHECK
 70
     0
  9
$PEXTMIN
 10
1.0000000000E+20
 20
1.0000000000E+20
 30
1.0000000000E+20
  9
$PEXTMAX
 10
-1.0000000000E+20
 20
-1.0000000000E+20
 30
-1.0000000000E+20
  9
$PLIMMIN
 10
0.0
 20
0.0
  9
$PLIMMAX
 10
420.0
 20
297.0
  9
$UNITMODE
 70
     0
  9
$VISRETAIN
 70
     1
  9
$PLINEGEN
 70
     0
  9
$PSLTSCALE
 70
     1
  9
$TREEDEPTH
 70
  3020
  9
$CMLSTYLE
  2
Standard
  9
$CMLJUST
 70
     0
  9
$CMLSCALE
 40
20.0
  9
$PROXYGRAPHICS
 70
     1
  9
$MEASUREMENT
 70
     1
  9
$CELWEIGHT
370
    -1
  9
$ENDCAPS
280
     0
  9
$JOINSTYLE
280
     0
  9
$LWDISPLAY
290
     1
  9
$INSUNITS
 70
     4
  9
$HYPERLINKBASE
  1

  9
$STYLESHEET
  1

  9
$XEDIT
290
     1
  9
$CEPSNTYPE
380
     0
  9
$PSTYLEMODE
290
     1
  9
$FINGERPRINTGUID
  2
{8e99a738-7946-4270-ba4f-5a121ed0936e}
  9
$VERSIONGUID
  2
{FAEB1C32-E019-11D5-929B-00C0DF256EC4}
  9
$EXTNAMES
290
     1
  9
$PSVPSCALE
 40
0.0
  9
$OLESTARTUP
290
     0
  0
ENDSEC
  0
SECTION
  2
CLASSES
  0
CLASS
  1
ACDBDICTIONARYWDFLT
  2
AcDbDictionaryWithDefault
  3
ObjectDBX Classes
 90
        0
280
     0
281
     0
  0
CLASS
  1
VISUALSTYLE
  2
AcDbVisualStyle
  3
ObjectDBX Classes
 90
     4095
280
     0
281
     0
  0
CLASS
  1
MATERIAL
  2
AcDbMaterial
  3
ObjectDBX Classes
 90
     1153
280
     0
281
     0
  0
CLASS
  1
SCALE
  2
AcDbScale
  3
ObjectDBX Classes
 90
     1153
280
     0
281
     0
  0
CLASS
  1
TABLESTYLE
  2
AcDbTableStyle
  3
ObjectDBX Classes
 90
     4095
280
     0
281
     0
  0
CLASS
  1
MLEADERSTYLE
  2
AcDbMLeaderStyle
  3
ACDB_MLEADERSTYLE_CLASS
 90
     4095
280
     0
281
     0
  0
CLASS
  1
SUN
  2
AcDbSun
  3
SCENEOE
 90
     1153
280
     0
281
     0
  0
CLASS
  1
ACDBPLACEHOLDER
  2
AcDbPlaceHolder
  3
ObjectDBX Classes
 90
        0
280
     0
281
     0
  0
CLASS
  1
LAYOUT
  2
AcDbLayout
  3
ObjectDBX Classes
 90
        0
280
     0
281
     0
  0
ENDSEC
  0
SECTION
  2
TABLES
  0
TABLE
  2
VPORT
  5
8
330
0
100
AcDbSymbolTable
 70
     1
  0
VPORT
  5
29
330
8
100
AcDbSymbolTableRecord
100
AcDbViewportTableRecord
  2
*Active
 70
     0
 10
0.0
 20
0.0
 11
1.0
 21
1.0
 12
139.7
 22
107.95
 13
0.0
 23
0.0
 14
10.0
 24
10.0
 15
10.0
 25
10.0
 16
0.0
 26
0.0
 36
1.0
 17
0.0
 27
0.0
 37
0.0
 40
215.9
 41
1.2941176471
 42
50.0
 43
0.0
 44
0.0
 50
0.0
 51
0.0
 71
     0
 72
  2000
 73
     1
 74
     3
 75
     0
 76
     0
 77
     0
 78
     0
281
     0
 65
     1
110
0.0
120
0.0
130
0.0
111
1.0
121
0.0
131
0.0
112
0.0
122
1.0
132
0.0
 79
     0
146
0.0
  0
ENDTAB
  0
TABLE
  2
LTYPE
  5
5
330
0
100
AcDbSymbolTable
 70
     6
  0
LTYPE
  5
14
330
5
100
AcDbSymbolTableRecord
100
AcDbLinetypeTableRecord
  2
ByBlock
 70
     0
  3

 72
    65
 73
     0
 40
0.0
  0
LTYPE
  5
15
330
5
100
AcDbSymbolTableRecord
100
AcDbLinetypeTableRecord
  2
ByLayer
 70
     0
  3

 72
    65
 73
     0
 40
0.0
  0
LTYPE
  5
16
330
5
100
AcDbSymbolTableRecord
100
AcDbLinetypeTableRecord
  2
Continuous
 70
     0
  3
Solid line
 72
    65
 73
     0
 40
0.0
  0
LTYPE
  5
6E
330
5
100
AcDbSymbolTableRecord
100
AcDbLinetypeTableRecord
  2
HIDDEN
 70
     0
  3
Hidden __ __ __ __ __ __ __ __ __ __ __ __ __ __
 72
    65
 73
     2
 40
1.905
 49
1.27
 74
     0
 49
-0.635
 74
     0
  0
LTYPE
  5
6F
330
5
100
AcDbSymbolTableRecord
100
AcDbLinetypeTableRecord
  2
PHANTOM
 70
     0
  3
Phantom ______  __  __  ______  __  __  ______
 72
    65
 73
     6
 40
12.7
 49
6.35
 74
     0
 49
-1.27
 74
     0
 49
1.27
 74
     0
 49
-1.27
 74
     0
 49
1.27
 74
     0
 49
-1.27
 74
     0
  0
LTYPE
  5
70
330
5
100
AcDbSymbolTableRecord
100
AcDbLinetypeTableRecord
  2
CENTER
 70
     0
  3
Center ____ _ ____ _ ____ _ ____ _ ____ _ ____
 72
    65
 73
     4
 40
10.16
 49
6.35
 74
     0
 49
-1.27
 74
     0
 49
1.27
 74
     0
 49
-1.27
 74
     0
  0
LTYPE
  5
71
330
5
100
AcDbSymbolTableRecord
100
AcDbLinetypeTableRecord
  2
CENTERX2
 70
     0
  3
Center (2x) ________  __  ________  __  _____
 72
    65
 73
     4
 40
20.32
 49
12.7
 74
     0
 49
-2.54
 74
     0
 49
2.54
 74
     0
 49
-2.54
 74
     0
  0
LTYPE
  5
72
330
5
100
AcDbSymbolTableRecord
100
AcDbLinetypeTableRecord
  2
DOT2
 70
     0
  3
Dot (.5x) ........................................
 72
    65
 73
     2
 40
0.635
 49
0.0
 74
     0
 49
-0.635
 74
     0
  0
ENDTAB
  0
TABLE
  2
LAYER
  5
2
330
0
100
AcDbSymbolTable
 70
    17
  0
LAYER
  5
10
330
2
100
AcDbSymbolTableRecord
100
AcDbLayerTableRecord
  2
0
 70
     0
 62
     7
  6
Continuous
370
    -3
390
F
  0
LAYER
  5
73
330
2
100
AcDbSymbolTableRecord
100
AcDbLayerTableRecord
  2
FORMAT
 70
     0
 62
     7
  6
Continuous
370
    -3
390
F
  0
LAYER
  5
74
330
2
100
AcDbSymbolTableRecord
100
AcDbLayerTableRecord
  2
YARDIMCI_GEOMETRI
 70
     0
 62
    -6
  6
Continuous
290
     0
370
    -3
390
F
  0
LAYER
  5
75
330
2
100
AcDbSymbolTableRecord
100
AcDbLayerTableRecord
  2
SAYFA_CERCEVESI
 70
     0
 62
     7
  6
Continuous
370
    25
390
F
  0
LAYER
  5
76
330
2
100
AcDbSymbolTableRecord
100
AcDbLayerTableRecord
  2
ANTET
 70
     0
 62
     7
  6
Continuous
370
    -3
390
F
  0
LAYER
  5
77
330
2
100
AcDbSymbolTableRecord
100
AcDbLayerTableRecord
  2
OLCU
 70
     0
 62
   150
  6
Continuous
370
    -3
390
F
  0
LAYER
  5
78
330
2
100
AcDbSymbolTableRecord
100
AcDbLayerTableRecord
  2
METIN
 70
     0
 62
    96
  6
Continuous
370
    -3
390
F
  0
LAYER
  5
79
330
2
100
AcDbSymbolTableRecord
100
AcDbLayerTableRecord
  2
BALON
 70
     0
 62
     5
  6
Continuous
370
    -3
390
F
  0
LAYER
  5
7A
330
2
100
AcDbSymbolTableRecord
100
AcDbLayerTableRecord
  2
VURGU
 70
     0
 62
     7
  6
Continuous
370
    -3
390
F
  0
LAYER
  5
7B
330
2
100
AcDbSymbolTableRecord
100
AcDbLayerTableRecord
  2
SILIK
 70
     0
 62
     7
  6
Continuous
370
    -3
390
F
  0
LAYER
  5
7C
330
2
100
AcDbSymbolTableRecord
100
AcDbLayerTableRecord
  2
MODEL
 70
     0
 62
     7
  6
Continuous
370
    -3
390
F
  0
LAYER
  5
7D
330
2
100
AcDbSymbolTableRecord
100
AcDbLayerTableRecord
  2
DETAYLANDıRMA
 70
     0
 62
   190
  6
Continuous
370
    -3
390
F
  0
LAYER
  5
7E
330
2
100
AcDbSymbolTableRecord
100
AcDbLayerTableRecord
  2
TOLERANS
 70
     0
 62
   230
  6
Continuous
370
    -3
390
F
  0
LAYER
  5
7F
330
2
100
AcDbSymbolTableRecord
100
AcDbLayerTableRecord
  2
MERKEZ_CIZGILERI
 70
     0
 62
    30
  6
Continuous
370
    -3
390
F
  0
LAYER
  5
80
330
2
100
AcDbSymbolTableRecord
100
AcDbLayerTableRecord
  2
KESIT-DETAY_CIZGILERI
 70
     0
 62
     7
  6
Continuous
370
    -3
390
F
  0
LAYER
  5
81
330
2
100
AcDbSymbolTableRecord
100
AcDbLayerTableRecord
  2
\U+041E\U+0421\U+0415\U+0412\U+042B\U+0415
 70
     0
 62
     7
  6
Continuous
370
    -3
390
F
  0
LAYER
  5
82
330
2
100
AcDbSymbolTableRecord
100
AcDbLayerTableRecord
  2
\U+0412\U+041E\U+0414\U+042F\U+041D\U+042B\U+0415_\U+0417\U+041D\U+0410\U+041A\U+0418
 70
     0
 62
    11
  6
Continuous
370
    -3
390
F
  0
ENDTAB
  0
TABLE
  2
STYLE
  5
3
330
0
100
AcDbSymbolTable
 70
     1
  0
STYLE
  5
11
330
3
100
AcDbSymbolTableRecord
100
AcDbTextStyleTableRecord
  2
Standard
 70
     0
 40
0.0
 41
1.0
 50
0.0
 71
     0
 42
3.5
  3
txt
  4

  0
ENDTAB
  0
TABLE
  2
VIEW
  5
6
330
0
100
AcDbSymbolTable
 70
     0
  0
ENDTAB
  0
TABLE
  2
UCS
  5
7
330
0
100
AcDbSymbolTable
 70
     0
  0
ENDTAB
  0
TABLE
  2
APPID
  5
9
330
0
100
AcDbSymbolTable
 70
     1
  0
APPID
  5
12
330
9
100
AcDbSymbolTableRecord
100
AcDbRegAppTableRecord
  2
ACAD
 70
     0
  0
ENDTAB
  0
TABLE
  2
DIMSTYLE
  5
A
330
0
100
AcDbSymbolTable
 70
     1
100
AcDbDimStyleTable
  0
DIMSTYLE
105
27
330
A
100
AcDbSymbolTableRecord
100
AcDbDimStyleTableRecord
  2
ISO-25
 70
     0
 41
2.5
 42
0.625
 43
3.75
 44
1.25
 73
     0
 74
     0
 77
     1
 78
     8
140
2.5
141
2.5
143
0.0393700787
147
0.625
171
     3
172
     1
178
     0
271
     2
272
     2
274
     3
278
    44
283
     0
284
     8
340
11
  0
ENDTAB
  0
TABLE
  2
BLOCK_RECORD
  5
1
330
0
100
AcDbSymbolTable
 70
     2
  0
BLOCK_RECORD
  5
1F
330
1
100
AcDbSymbolTableRecord
100
AcDbBlockTableRecord
  2
*Model_Space
340
22
  0
BLOCK_RECORD
  5
1B
330
1
100
AcDbSymbolTableRecord
100
AcDbBlockTableRecord
  2
*Paper_Space
340
1E
  0
BLOCK_RECORD
  5
23
330
1
100
AcDbSymbolTableRecord
100
AcDbBlockTableRecord
  2
*Paper_Space0
340
26
  0
BLOCK_RECORD
  5
85
330
1
100
AcDbSymbolTableRecord
100
AcDbBlockTableRecord
  2
SW_CENTERMARKSYMBOL_0
340
0
102
{BLKREFS
331
90
102
}
  0
ENDTAB
  0
ENDSEC
  0
SECTION
  2
BLOCKS
  0
BLOCK
  5
20
330
1F
100
AcDbEntity
  8
0
100
AcDbBlockBegin
  2
*Model_Space
 70
     0
 10
0.0
 20
0.0
 30
0.0
  3
*Model_Space
  1

  0
ENDBLK
  5
21
330
1F
100
AcDbEntity
  8
0
100
AcDbBlockEnd
  0
BLOCK
  5
1C
330
1B
100
AcDbEntity
 67
     1
  8
0
100
AcDbBlockBegin
  2
*Paper_Space
 70
     0
 10
0.0
 20
0.0
 30
0.0
  3
*Paper_Space
  1

  0
ENDBLK
  5
1D
330
1B
100
AcDbEntity
 67
     1
  8
0
100
AcDbBlockEnd
  0
BLOCK
  5
24
330
23
100
AcDbEntity
  8
0
100
AcDbBlockBegin
  2
*Paper_Space0
 70
     0
 10
0.0
 20
0.0
 30
0.0
  3
*Paper_Space0
  1

  0
ENDBLK
  5
25
330
23
100
AcDbEntity
  8
0
100
AcDbBlockEnd
  0
BLOCK
  5
86
330
85
100
AcDbEntity
  8
0
100
AcDbBlockBegin
  2
SW_CENTERMARKSYMBOL_0
 70
     0
 10
0.0
 20
0.0
 30
0.0
  3
SW_CENTERMARKSYMBOL_0
  1

  0
LINE
  5
88
330
85
100
AcDbEntity
  8
FORMAT
 62
     0
100
AcDbLine
 10
0.0
 20
0.0
 30
0.0
 11
0.0
 21
2.5
 31
0.0
  0
LINE
  5
89
330
85
100
AcDbEntity
  8
FORMAT
 62
     0
100
AcDbLine
 10
0.0
 20
0.0
 30
0.0
 11
-2.5
 21
0.0
 31
0.0
  0
LINE
  5
8A
330
85
100
AcDbEntity
  8
FORMAT
 62
     0
100
AcDbLine
 10
0.0
 20
0.0
 30
0.0
 11
0.0
 21
-2.5
 31
0.0
  0
LINE
  5
8B
330
85
100
AcDbEntity
  8
FORMAT
 62
     0
100
AcDbLine
 10
0.0
 20
0.0
 30
0.0
 11
2.5
 21
0.0
 31
0.0
  0
LINE
  5
8C
330
85
100
AcDbEntity
  8
FORMAT
 62
     0
100
AcDbLine
 10
0.0
 20
5.0
 30
0.0
 11
0.0
 21
115.0
 31
0.0
  0
LINE
  5
8D
330
85
100
AcDbEntity
  8
FORMAT
 62
     0
100
AcDbLine
 10
-5.0
 20
0.0
 30
0.0
 11
-115.0
 21
0.0
 31
0.0
  0
LINE
  5
8E
330
85
100
AcDbEntity
  8
FORMAT
 62
     0
100
AcDbLine
 10
0.0
 20
-5.0
 30
0.0
 11
0.0
 21
-115.0
 31
0.0
  0
LINE
  5
8F
330
85
100
AcDbEntity
  8
FORMAT
 62
     0
100
AcDbLine
 10
5.0
 20
0.0
 30
0.0
 11
115.0
 21
0.0
 31
0.0
  0
ENDBLK
  5
87
330
85
100
AcDbEntity
  8
0
100
AcDbBlockEnd
  0
ENDSEC
  0
SECTION
  2
ENTITIES
  0
CIRCLE
  5
83
330
1F
100
AcDbEntity
  8
0
  6
Continuous
 62
     7
370
    25
100
AcDbCircle
 10
142.7995540317
 20
106.0321058177
 30
0.0
 40
92.00000000000004
  0
CIRCLE
  5
84
330
1F
100
AcDbEntity
  8
0
  6
Continuous
 62
     7
370
    25
100
AcDbCircle
 10
142.7995540317
 20
106.0321058177
 30
0.0
 40
112.5
  0
INSERT
  5
90
330
1F
100
AcDbEntity
  8
FORMAT
100
AcDbBlockReference
  2
SW_CENTERMARKSYMBOL_0
 10
142.7995540317
 20
106.0321058177
 30
0.0
  0
ARC
  5
91
330
1F
100
AcDbEntity
  8
0
  6
Continuous
 62
     7
370
    25
100
AcDbCircle
 10
139.4204144347
 20
605.0123017483
 30
0.0
 40
337.4999999999999
100
AcDbArc
 50
270.5736701399
 51
290.0808376405
  0
ARC
  5
92
330
1F
100
AcDbEntity
  8
0
  6
Continuous
 62
     7
370
    25
100
AcDbCircle
 10
146.1786936288
 20
605.0123017483
 30
0.0
 40
337.4999999999999
100
AcDbArc
 50
249.9191623595
 51
269.4263298601
  0
LINE
  5
93
330
1F
100
AcDbEntity
  8
0
  6
Continuous
 62
     7
370
    25
100
AcDbLine
 10
30.2995540317
 20
427.7003547128
 30
0.0
 11
30.2995540317
 21
288.0292185936
 31
0.0
  0
LINE
  5
94
330
1F
100
AcDbEntity
  8
0
  6
Continuous
 62
     7
370
    25
100
AcDbLine
 10
255.2995540317
 20
288.0292185936
 30
0.0
 11
255.2995540317
 21
427.7003547128
 31
0.0
  0
LINE
  5
95
330
1F
100
AcDbEntity
  8
0
  6
Continuous
 62
     7
370
    25
100
AcDbLine
 10
142.7995540317
 20
288.0292185936
 30
0.0
 11
255.2995540317
 21
288.0292185936
 31
0.0
  0
LINE
  5
96
330
1F
100
AcDbEntity
  8
0
  6
Continuous
 62
     7
370
    25
100
AcDbLine
 10
30.2995540317
 20
288.0292185936
 30
0.0
 11
142.7995540317
 21
288.0292185936
 31
0.0
  0
LINE
  5
97
330
1F
100
AcDbEntity
  8
0
  6
Continuous
 62
     7
370
    25
100
AcDbLine
 10
142.7995540317
 20
427.7003547128
 30
0.0
 11
255.2995540317
 21
427.7003547128
 31
0.0
  0
LINE
  5
98
330
1F
100
AcDbEntity
  8
0
  6
Continuous
 62
     7
370
    25
100
AcDbLine
 10
30.2995540317
 20
427.7003547128
 30
0.0
 11
142.7995540317
 21
427.7003547128
 31
0.0
  0
LINE
  5
99
330
1F
100
AcDbEntity
  8
0
  6
Continuous
 62
     7
370
    25
100
AcDbLine
 10
255.2995540317
 20
-244.517947796
 30
0.0
 11
255.2995540317
 21
-104.8468116769
 31
0.0
  0
LINE
  5
9A
330
1F
100
AcDbEntity
  8
0
  6
Continuous
 62
     7
370
    25
100
AcDbLine
 10
30.2995540317
 20
-104.8468116769
 30
0.0
 11
30.2995540317
 21
-244.517947796
 31
0.0
  0
ARC
  5
9B
330
1F
100
AcDbEntity
  8
0
  6
Continuous
 62
     7
370
    25
100
AcDbCircle
 10
146.1786936288
 20
-421.8298948315
 30
0.0
 40
337.5
100
AcDbArc
 50
90.5736701399
 51
110.0808376405
  0
ARC
  5
9C
330
1F
100
AcDbEntity
  8
0
  6
Continuous
 62
     7
370
    25
100
AcDbCircle
 10
139.4204144347
 20
-421.8298948315
 30
0.0
 40
337.5
100
AcDbArc
 50
69.9191623595
 51
89.4263298601
  0
LINE
  5
9D
330
1F
100
AcDbEntity
  8
0
  6
Continuous
 62
     7
370
    25
100
AcDbLine
 10
255.2995540317
 20
-244.517947796
 30
0.0
 11
30.2995540317
 21
-244.517947796
 31
0.0
  0
LINE
  5
9E
330
1F
100
AcDbEntity
  8
0
  6
Continuous
 62
     7
370
    25
100
AcDbLine
 10
255.2995540317
 20
-104.8468116769
 30
0.0
 11
30.2995540317
 21
-104.8468116769
 31
0.0
  0
ARC
  5
9F
330
1F
100
AcDbEntity
  8
0
  6
Continuous
 62
     7
370
    25
100
AcDbCircle
 10
681.1670461578
 20
109.4112454147
 30
0.0
 40
337.5
100
AcDbArc
 50
180.5736701399
 51
200.0808376405
  0
ARC
  5
A0
330
1F
100
AcDbEntity
  8
0
  6
Continuous
 62
     7
370
    25
100
AcDbCircle
 10
681.1670461578
 20
102.6529662206
 30
0.0
 40
337.5
100
AcDbArc
 50
159.9191623595
 51
179.4263298601
  0
LINE
  5
A1
330
1F
100
AcDbEntity
  8
0
  6
Continuous
 62
     7
370
    25
100
AcDbLine
 10
503.8550991223
 20
218.5321058177
 30
0.0
 11
364.1839630031
 21
218.5321058177
 31
0.0
  0
LINE
  5
A2
330
1F
100
AcDbEntity
  8
0
  6
Continuous
 62
     7
370
    25
100
AcDbLine
 10
364.1839630031
 20
-6.4678941823
 30
0.0
 11
503.8550991223
 21
-6.4678941823
 31
0.0
  0
LINE
  5
A3
330
1F
100
AcDbEntity
  8
0
  6
Continuous
 62
     7
370
    25
100
AcDbLine
 10
364.1839630031
 20
218.5321058177
 30
0.0
 11
364.1839630031
 21
-6.4678941823
 31
0.0
  0
LINE
  5
A4
330
1F
100
AcDbEntity
  8
0
  6
Continuous
 62
     7
370
    25
100
AcDbLine
 10
503.8550991223
 20
218.5321058177
 30
0.0
 11
503.8550991223
 21
-6.4678941823
 31
0.0
  0
ARC
  5
A5
330
1F
100
AcDbEntity
  8
0
  6
Continuous
 62
     7
370
    25
100
AcDbCircle
 10
-415.2253811867
 20
102.6529662206
 30
0.0
 40
337.5000000000001
100
AcDbArc
 50
0.5736701399
 51
20.0808376405
  0
ARC
  5
A6
330
1F
100
AcDbEntity
  8
0
  6
Continuous
 62
     7
370
    25
100
AcDbCircle
 10
-415.2253811867
 20
109.4112454147
 30
0.0
 40
337.5000000000001
100
AcDbArc
 50
339.9191623595
 51
359.4263298601
  0
LINE
  5
A7
330
1F
100
AcDbEntity
  8
0
  6
Continuous
 62
     7
370
    25
100
AcDbLine
 10
-237.9134341512
 20
-6.4678941823
 30
0.0
 11
-98.242298032
 21
-6.4678941823
 31
0.0
  0
LINE
  5
A8
330
1F
100
AcDbEntity
  8
0
  6
Continuous
 62
     7
370
    25
100
AcDbLine
 10
-98.242298032
 20
218.5321058177
 30
0.0
 11
-237.9134341512
 21
218.5321058177
 31
0.0
  0
LINE
  5
A9
330
1F
100
AcDbEntity
  8
0
  6
Continuous
 62
     7
370
    25
100
AcDbLine
 10
-98.242298032
 20
-6.4678941823
 30
0.0
 11
-98.242298032
 21
218.5321058177
 31
0.0
  0
LINE
  5
AA
330
1F
100
AcDbEntity
  8
0
  6
Continuous
 62
     7
370
    25
100
AcDbLine
 10
-237.9134341512
 20
-6.4678941823
 30
0.0
 11
-237.9134341512
 21
218.5321058177
 31
0.0
  0
LINE
  5
AB
330
1F
100
AcDbEntity
  8
0
  6
Continuous
 62
     7
370
    25
100
AcDbLine
 10
334.2784419216
 20
-262.9770752187
 30
0.0
 11
433.0408494075
 21
-319.9913994763
 31
0.0
  0
LINE
  5
AC
330
1F
100
AcDbEntity
  8
0
  6
Continuous
 62
     7
370
    25
100
AcDbLine
 10
545.531706829
 20
-125.1304054406
 30
0.0
 11
446.7692993431
 21
-68.116081183
 31
0.0
  0
LWPOLYLINE
  5
AD
330
1F
100
AcDbEntity
  8
0
  6
Continuous
 62
     7
370
    25
100
AcDbPolyline
 90
      136
 70
   128
 43
0.0
 10
390.5238706323
 20
-257.407419538
 10
394.2249365544
 20
-255.171364596
 10
397.9179867919
 20
-252.7412023241
 10
401.5950230202
 20
-250.1221959126
 10
405.2480815978
 20
-247.3200175462
 10
408.8692508131
 20
-244.3407361192
 10
412.4506880201
 20
-241.1908040918
 10
415.9846366232
 20
-237.8770435154
 10
419.4634428767
 20
-234.4066312574
 10
422.8795724609
 20
-230.7870834581
 10
426.2256267998
 20
-227.0262392519
 10
429.4943590848
 20
-223.13224379
 10
432.6786899697
 20
-219.1135305995
 10
435.7717229028
 20
-214.9788033182
 10
438.7667590635
 20
-210.7370168447
 10
441.6573118704
 20
-206.397357944
 10
444.4371210299
 20
-201.9692253509
 10
447.1001660943
 20
-197.4622094145
 10
449.640679501
 20
-192.8860713278
 10
452.0531590635
 20
-188.2507219869
 10
454.3323798886
 20
-183.5662005262
 10
456.4734056912
 20
-178.8426525762
 10
458.4715994864
 20
-174.0903082897
 10
460.3226336312
 20
-169.3194601864
 10
462.022499198
 20
-164.5404408609
 10
463.5675146564
 20
-159.7636006047
 10
464.954333847
 20
-154.9992849904
 10
466.1799532283
 20
-150.2578124644
 10
467.2417183815
 20
-145.5494520006
 10
468.1373297598
 20
-140.8844008593
 10
468.8648476683
 20
-136.2727625023
 10
469.4226964654
 20
-131.7245247116
 10
469.8096679746
 20
-127.2495379573
 10
470.0249241019
 20
-122.8574940643
 10
470.0679986505
 20
-118.5579052217
 10
469.9387983304
 20
-114.3600833814
 10
469.6376029609
 20
-110.2731200909
 10
469.1650648639
 20
-106.3058668025
 10
468.5222074517
 20
-102.4669157035
 10
467.7104230105
 20
-98.764581107
 10
466.7314696845
 20
-95.2068814454
 10
465.5874676687
 20
-91.801521904
 10
464.2808946166
 20
-88.5558777331
 10
462.8145802745
 20
-85.4769782754
 10
461.1917003529
 20
-82.5714917415
 10
459.4157696481
 20
-79.8457107682
 10
457.4906344308
 20
-77.3055387902
 10
455.420464115
 20
-74.9564772542
 10
453.2097422287
 20
-72.8036137046
 10
450.8632567033
 20
-70.8516107643
 10
448.3860895038
 20
-69.1046960371
 10
445.7836056228
 20
-67.5666529513
 10
443.0614414609
 20
-66.2408125657
 10
440.2254926195
 20
-65.1300463554
 10
437.2819011323
 20
-64.2367599925
 10
434.237042163
 20
-63.5628881366
 10
431.097510198
 20
-63.1098902439
 10
427.8701047646
 20
-62.878747407
 10
424.5618157042
 20
-62.8699602298
 10
421.1798080342
 20
-63.0835477434
 10
417.7314064302
 20
-63.5190473649
 10
414.2240793622
 20
-64.1755158989
 10
410.6654229195
 20
-65.0515315809
 10
407.0631443597
 20
-66.1451971559
 10
403.4250454158
 20
-67.4541439879
 10
399.7590054002
 20
-68.9755371894
 10
396.0729641392
 20
-70.7060817616
 10
392.3749047772
 20
-72.6420297303
 10
388.6728364875
 20
-74.7791882632
 10
384.9747771255
 20
-77.112928751
 10
381.2887358645
 20
-79.6381968313
 10
377.6226958488
 20
-82.3495233358
 10
373.984596905
 20
-85.2410361351
 10
370.3823183452
 20
-88.3064728563
 10
366.8236619025
 20
-91.5391944461
 10
363.3163348344
 20
-94.9321995494
 10
359.8679332304
 20
-98.4781396726
 10
356.4859255605
 20
-102.1693350991
 10
353.1776365001
 20
-105.9977915214
 10
349.9502310667
 20
-109.9552173556
 10
346.8106991017
 20
-114.0330416984
 10
343.7658401324
 20
-118.2224328904
 10
340.8222486452
 20
-122.5143176432
 10
337.9862998038
 20
-126.89940069
 10
335.2641356419
 20
-131.3681849175
 10
332.6616517609
 20
-135.9109919341
 10
330.1844845614
 20
-140.5179830314
 10
327.837999036
 20
-145.1791804925
 10
325.6272771497
 20
-149.8844892017
 10
323.5571068339
 20
-154.6237185081
 10
321.6319716166
 20
-159.3866042963
 10
319.8560409118
 20
-164.1628312163
 10
318.2331609902
 20
-168.9420550242
 10
316.7668466481
 20
-173.7139249853
 10
315.460273596
 20
-178.468106292
 10
314.3162715802
 20
-183.1943024461
 10
313.3373182542
 20
-187.8822775593
 10
312.5255338129
 20
-192.5218785214
 10
311.8826764008
 20
-197.1030569897
 10
311.4101383038
 20
-201.6158911519
 10
311.1089429343
 20
-206.050607214
 10
310.9797426142
 20
-210.3976005686
 10
311.0228171627
 20
-214.647456596
 10
311.2380732901
 20
-218.7909710545
 10
311.6250447993
 20
-222.8191700144
 10
312.1828935963
 20
-226.7233292936
 10
312.9104115049
 20
-230.4949933527
 10
313.8060228832
 20
-234.1259936071
 10
314.8677880364
 20
-237.6084661188
 10
316.0934074176
 20
-240.9348686277
 10
317.4802266082
 20
-244.0979968869
 10
319.0252420667
 20
-247.0910002647
 10
320.7251076335
 20
-249.9073965825
 10
322.5761417783
 20
-252.5410861528
 10
324.5743355735
 20
-254.9863649907
 10
326.7153613761
 20
-257.2379371665
 10
328.9945822011
 20
-259.2909262763
 10
331.4070617637
 20
-261.1408860029
 10
333.9475751704
 20
-262.7838097455
 10
336.6106202347
 20
-264.2161392971
 10
339.3904293942
 20
-265.4347725508
 10
342.2809822012
 20
-266.4370702183
 10
345.2760183619
 20
-267.2208615461
 10
348.369051295
 20
-267.7844490168
 10
351.5533821799
 20
-268.1266120252
 10
354.8221144649
 20
-268.2466095226
 10
358.1681688038
 20
-268.1441816211
 10
361.584298388
 20
-267.8195501568
 10
365.0631046415
 20
-267.273418209
 10
368.5970532446
 20
-266.506968578
 10
372.1784904516
 20
-265.521861223
 10
375.7996596669
 20
-264.3202296672
 10
379.4527182445
 20
-262.9046763769
 10
383.1297544728
 20
-261.2782671254
 10
386.8228047103
 20
-259.4445243529
 10
390.5238706323
 20
-257.407419538
  0
LWPOLYLINE
  5
AE
330
1F
100
AcDbEntity
  8
0
  6
Continuous
 62
     7
370
    25
100
AcDbPolyline
 90
       52
 70
   128
 43
0.0
 10
489.2862781183
 20
-314.4217437956
 10
492.9873440403
 20
-312.1856888536
 10
496.6803942778
 20
-309.7555265817
 10
500.3574305061
 20
-307.1365201702
 10
504.0104890837
 20
-304.3343418038
 10
507.631658299
 20
-301.3550603768
 10
511.213095506
 20
-298.2051283494
 10
514.7470441091
 20
-294.891367773
 10
518.2258503626
 20
-291.420955515
 10
521.6419799468
 20
-287.8014077157
 10
524.9880342857
 20
-284.0405635095
 10
528.2567665707
 20
-280.1465680476
 10
531.4410974556
 20
-276.1278548571
 10
534.5341303887
 20
-271.9931275758
 10
537.5291665494
 20
-267.7513411023
 10
540.4197193564
 20
-263.4116822016
 10
543.1995285159
 20
-258.9835496085
 10
545.8625735802
 20
-254.4765336721
 10
548.4030869869
 20
-249.9003955854
 10
550.8155665495
 20
-245.2650462445
 10
553.0947873745
 20
-240.5805247839
 10
555.2358131771
 20
-235.8569768338
 10
557.2340069723
 20
-231.1046325473
 10
559.0850411171
 20
-226.333784444
 10
560.7849066839
 20
-221.5547651185
 10
562.3299221424
 20
-216.7779248623
 10
563.716741333
 20
-212.013609248
 10
564.9423607142
 20
-207.272136722
 10
566.0041258674
 20
-202.5637762582
 10
566.8997372457
 20
-197.8987251169
 10
567.6272551543
 20
-193.2870867599
 10
568.1851039513
 20
-188.7388489692
 10
568.5720754605
 20
-184.2638622149
 10
568.7873315879
 20
-179.8718183219
 10
568.8304061364
 20
-175.5722294793
 10
568.7012058163
 20
-171.374407639
 10
568.4000104468
 20
-167.2874443485
 10
567.9274723498
 20
-163.3201910601
 10
567.2846149377
 20
-159.4812399611
 10
566.4728304964
 20
-155.7789053646
 10
565.4938771704
 20
-152.221205703
 10
564.3498751546
 20
-148.8158461616
 10
563.0433021025
 20
-145.5702019907
 10
561.5769877604
 20
-142.491302533
 10
559.9541078388
 20
-139.5858159991
 10
558.178177134
 20
-136.8600350258
 10
556.2530419167
 20
-134.3198630478
 10
554.1828716009
 20
-131.9708015118
 10
551.9721497146
 20
-129.8179379622
 10
549.6256641892
 20
-127.8659350219
 10
547.1484969897
 20
-126.1190202948
 10
545.531706829
 20
-125.1304054406
  0
LWPOLYLINE
  5
AF
330
1F
100
AcDbEntity
  8
0
  6
Continuous
 62
     7
370
    25
100
AcDbPolyline
 90
       18
 70
   128
 43
0.0
 10
433.0408494075
 20
-319.9913994763
 10
435.3730277207
 20
-321.2304635547
 10
438.1528368802
 20
-322.4490968084
 10
441.0433896871
 20
-323.4513944759
 10
444.0384258478
 20
-324.2351858037
 10
447.1314587809
 20
-324.7987732744
 10
450.3157896658
 20
-325.1409362828
 10
453.5845219508
 20
-325.2609337802
 10
456.9305762897
 20
-325.1585058787
 10
460.3467058739
 20
-324.8338744144
 10
463.8255121274
 20
-324.2877424666
 10
467.3594607305
 20
-323.5212928356
 10
470.9408979375
 20
-322.5361854806
 10
474.5620671528
 20
-321.3345539248
 10
478.2151257304
 20
-319.9190006345
 10
481.8921619587
 20
-318.292591383
 10
485.5852121962
 20
-316.4588486105
 10
489.2862781183
 20
-314.4217437956
  0
LWPOLYLINE
  5
B0
330
1F
100
AcDbEntity
  8
0
  6
Continuous
 62
     7
370
    25
100
AcDbPolyline
 90
      123
 70
   128
 43
0.0
 10
390.5238706323
 20
-240.6683328943
 10
393.8727604782
 20
-238.6354552428
 10
397.2127696702
 20
-236.4087590285
 10
400.5350411044
 20
-233.9941490495
 10
403.8307647142
 20
-231.3980284174
 10
407.0912008331
 20
-228.6272815775
 10
410.3077033706
 20
-225.6892560521
 10
413.4717427402
 20
-222.591742957
 10
416.5749284783
 20
-219.3429563399
 10
419.6090314942
 20
-215.9515113989
 10
422.5660058921
 20
-212.4264016364
 10
425.4380103075
 20
-208.7769750097
 10
428.217428701
 20
-205.0129091422
 10
430.8968905547
 20
-201.1441856598
 10
433.4692904173
 20
-197.1810637219
 10
435.927806747
 20
-193.1340528153
 10
438.2659200004
 20
-189.0138848854
 10
440.4774299214
 20
-184.8314858768
 10
442.5564719833
 20
-180.59794676
 10
444.4975329403
 20
-176.3244941195
 10
446.2954654477
 20
-172.0224603835
 10
447.9455017117
 20
-167.7032537722
 10
449.4432661327
 20
-163.3783280449
 10
450.7847869088
 20
-159.0591521273
 10
451.966506568
 20
-154.7571796974
 10
452.9852914022
 20
-150.4838188127
 10
453.8384397772
 20
-146.2504016581
 10
454.5236892969
 20
-142.0681544948
 10
455.0392228026
 20
-137.9481678904
 10
455.3836731924
 20
-133.9013673089
 10
455.5561270456
 20
-129.9384841377
 10
455.5561270456
 20
-126.0700272308
 10
455.3836731924
 20
-122.3062550404
 10
455.0392228026
 20
-118.6571484137
 10
454.5236892969
 20
-115.1323841255
 10
453.8384397772
 20
-111.741309217
 10
452.9852914022
 20
-108.4929162093
 10
451.966506568
 20
-105.3958192567
 10
450.7847869088
 20
-102.4582313036
 10
449.4432661327
 20
-99.687942305
 10
447.9455017117
 20
-97.0922985695
 10
446.2954654477
 20
-94.6781832775
 10
444.4975329403
 20
-92.4519982289
 10
442.5564719833
 20
-90.4196468662
 10
440.4774299214
 20
-88.5865186198
 10
438.2659200004
 20
-86.9574746164
 10
435.927806747
 20
-85.5368347877
 10
433.4692904173
 20
-84.3283664153
 10
430.8968905547
 20
-83.3352741399
 10
428.217428701
 20
-82.5601914638
 10
425.4380103075
 20
-82.0051737669
 10
422.5660058921
 20
-81.6716928564
 10
419.6090314942
 20
-81.5606330636
 10
416.5749284783
 20
-81.6722888992
 10
413.4717427402
 20
-82.0063642719
 10
410.3077033706
 20
-82.561973274
 10
407.0912008331
 20
-83.3376425303
 10
403.8307647142
 20
-84.3313151053
 10
400.5350411044
 20
-85.540355958
 10
397.2127696702
 20
-86.9615589294
 10
393.8727604782
 20
-88.5911552446
 10
390.5238706323
 20
-90.4248235073
 10
387.1749807865
 20
-92.4577011589
 10
383.8349715945
 20
-94.6843973732
 10
380.5127001603
 20
-97.0990073522
 10
377.2169765505
 20
-99.6951279842
 10
373.9565404316
 20
-102.4658748242
 10
370.7400378941
 20
-105.4039003495
 10
367.5759985245
 20
-108.5014134447
 10
364.4728127864
 20
-111.7502000618
 10
361.4387097705
 20
-115.1416450027
 10
358.4817353726
 20
-118.6667547652
 10
355.6097309572
 20
-122.316181392
 10
352.8303125637
 20
-126.0802472595
 10
350.15085071
 20
-129.9489707418
 10
347.5784508473
 20
-133.9120926798
 10
345.1199345177
 20
-137.9591035864
 10
342.7818212643
 20
-142.0792715163
 10
340.5703113433
 20
-146.2616705248
 10
338.4912692814
 20
-150.4952096417
 10
336.5502083244
 20
-154.7686622822
 10
334.752275817
 20
-159.0706960181
 10
333.102239553
 20
-163.3899026295
 10
331.604475132
 20
-167.7148283567
 10
330.2629543559
 20
-172.0340042744
 10
329.0812346967
 20
-176.3359767043
 10
328.0624498625
 20
-180.609337589
 10
327.2093014875
 20
-184.8427547436
 10
326.5240519678
 20
-189.0250019069
 10
326.008518462
 20
-193.1449885113
 10
325.6640680723
 20
-197.1917890928
 10
325.4916142191
 20
-201.1546722639
 10
325.4916142191
 20
-205.0231291708
 10
325.6640680723
 20
-208.7869013613
 10
326.008518462
 20
-212.436007988
 10
326.5240519678
 20
-215.9607722762
 10
327.2093014875
 20
-219.3518471847
 10
328.0624498625
 20
-222.6002401923
 10
329.0812346967
 20
-225.6973371449
 10
330.2629543559
 20
-228.6349250981
 10
331.604475132
 20
-231.4052140966
 10
333.102239553
 20
-234.0008578322
 10
334.752275817
 20
-236.4149731241
 10
336.5502083244
 20
-238.6411581727
 10
338.4912692814
 20
-240.6735095355
 10
340.5703113433
 20
-242.5066377818
 10
342.7818212643
 20
-244.1356817852
 10
345.1199345177
 20
-245.5563216139
 10
347.5784508473
 20
-246.7647899864
 10
350.15085071
 20
-247.7578822617
 10
352.8303125637
 20
-248.5329649378
 10
355.6097309572
 20
-249.0879826347
 10
358.4817353726
 20
-249.4214635453
 10
361.4387097705
 20
-249.5325233381
 10
364.4728127864
 20
-249.4208675025
 10
367.5759985245
 20
-249.0867921297
 10
370.7400378941
 20
-248.5311831276
 10
373.9565404316
 20
-247.7555138714
 10
377.2169765505
 20
-246.7618412964
 10
380.5127001603
 20
-245.5528004437
 10
383.8349715945
 20
-244.1315974723
 10
387.1749807865
 20
-242.502001157
 10
390.5238706323
 20
-240.6683328943
  0
ARC
  5
B1
330
1F
100
AcDbEntity
  8
0
  6
Continuous
 62
     7
370
    25
100
AcDbCircle
 10
568.7263678586
 20
-268.4206901125
 30
0.0
 40
156.8304181650184
100
AcDbArc
 50
140.6268033429
 51
159.3785731898
  0
ENDSEC
  0
SECTION
  2
OBJECTS
  0
DICTIONARY
  5
C
330
0
100
AcDbDictionary
281
     1
  3
ACAD_GROUP
350
D
  3
ACAD_LAYOUT
350
1A
  3
ACAD_MLINESTYLE
350
17
  3
ACAD_PLOTSETTINGS
350
19
  3
ACAD_PLOTSTYLENAME
350
E
  3
ACAD_SCALELIST
350
47
  3
DWGPROPS
350
B2
  0
DICTIONARY
  5
D
102
{ACAD_REACTORS
330
C
102
}
330
C
100
AcDbDictionary
281
     1
  0
DICTIONARY
  5
1A
102
{ACAD_REACTORS
330
C
102
}
330
C
100
AcDbDictionary
281
     1
  3
Layout1
350
1E
  3
Layout2
350
26
  3
Model
350
22
  0
DICTIONARY
  5
17
102
{ACAD_REACTORS
330
C
102
}
330
C
100
AcDbDictionary
281
     1
  3
Standard
350
18
  0
DICTIONARY
  5
19
102
{ACAD_REACTORS
330
C
102
}
330
C
100
AcDbDictionary
281
     1
  0
ACDBDICTIONARYWDFLT
  5
E
102
{ACAD_REACTORS
330
C
102
}
330
C
100
AcDbDictionary
281
     1
  3
Normal
350
F
100
AcDbDictionaryWithDefault
340
F
  0
DICTIONARY
  5
47
102
{ACAD_REACTORS
330
C
102
}
330
C
100
AcDbDictionary
281
     1
  3
A0
350
48
  3
A1
350
49
  3
A2
350
4A
  3
A3
350
4B
  3
A4
350
4C
  3
A5
350
4D
  3
A6
350
4E
  3
A7
350
4F
  3
A8
350
50
  3
A9
350
51
  3
B0
350
52
  3
B1
350
53
  3
B2
350
54
  3
B3
350
55
  3
B4
350
56
  3
B5
350
57
  3
B6
350
58
  3
B7
350
59
  3
B8
350
5A
  3
B9
350
5B
  3
C0
350
5C
  3
C1
350
5D
  3
C2
350
5E
  3
C3
350
5F
  3
C4
350
60
  3
C5
350
61
  3
C6
350
62
  3
C7
350
63
  3
C8
350
64
  3
C9
350
65
  3
D0
350
66
  3
D1
350
67
  3
D2
350
68
  0
XRECORD
  5
B2
102
{ACAD_REACTORS
330
C
102
}
330
C
100
AcDbXrecord
280
     1
  1
DWGPROPS COOKIE
  2

  3

  4

  6

  7

  8
b.kav
  9

300
=
301
=
302
=
303
=
304
=
305
=
306
=
307
=
308
=
309
=
 40
0.0
 41
2460697.415981621
 42
2460697.415981805
  1

 90
        0
  0
LAYOUT
  5
1E
102
{ACAD_REACTORS
330
1A
102
}
330
1A
100
AcDbPlotSettings
  1

  2
none_device
  4

  6

 40
0.0
 41
0.0
 42
0.0
 43
0.0
 44
0.0
 45
0.0
 46
0.0
 47
0.0
 48
0.0
 49
0.0
140
0.0
141
0.0
142
1.0
143
1.0
 70
   688
 72
     1
 73
     0
 74
     5
  7

 75
    16
147
1.0
148
0.0
149
0.0
100
AcDbLayout
  1
Layout1
 70
     1
 71
     1
 10
0.0
 20
0.0
 11
420.0
 21
297.0
 12
0.0
 22
0.0
 32
0.0
 14
1.0000000000E+20
 24
1.0000000000E+20
 34
1.0000000000E+20
 15
-1.0000000000E+20
 25
-1.0000000000E+20
 35
-1.0000000000E+20
146
0.0
 13
0.0
 23
0.0
 33
0.0
 16
1.0
 26
0.0
 36
0.0
 17
0.0
 27
1.0
 37
0.0
 76
     0
330
1B
  0
LAYOUT
  5
26
102
{ACAD_REACTORS
330
1A
102
}
330
1A
100
AcDbPlotSettings
  1

  2
none_device
  4

  6

 40
0.0
 41
0.0
 42
0.0
 43
0.0
 44
0.0
 45
0.0
 46
0.0
 47
0.0
 48
0.0
 49
0.0
140
0.0
141
0.0
142
1.0
143
1.0
 70
   688
 72
     1
 73
     0
 74
     5
  7

 75
    16
147
1.0
148
0.0
149
0.0
100
AcDbLayout
  1
Layout2
 70
     1
 71
     2
 10
0.0
 20
0.0
 11
0.0
 21
0.0
 12
0.0
 22
0.0
 32
0.0
 14
0.0
 24
0.0
 34
0.0
 15
0.0
 25
0.0
 35
0.0
146
0.0
 13
0.0
 23
0.0
 33
0.0
 16
1.0
 26
0.0
 36
0.0
 17
0.0
 27
1.0
 37
0.0
 76
     0
330
23
  0
LAYOUT
  5
22
102
{ACAD_REACTORS
330
1A
102
}
330
1A
100
AcDbPlotSettings
  1

  2
none_device
  4
Letter_(8.50_x_11.00_Inches)
  6

 40
6.35
 41
6.35
 42
6.35000508
 43
6.35000508
 44
215.9
 45
279.4
 46
0.0
 47
0.0
 48
0.0
 49
0.0
140
0.0
141
0.0
142
1.0
143
1.0
 70
  1712
 72
     1
 73
     0
 74
     0
  7

 75
     0
147
1.0
148
0.0
149
0.0
100
AcDbLayout
  1
Model
 70
     1
 71
     0
 10
0.0
 20
0.0
 11
279.4
 21
215.9
 12
0.0
 22
0.0
 32
0.0
 14
0.0
 24
0.0
 34
0.0
 15
279.4
 25
215.9
 35
0.0
146
0.0
 13
0.0
 23
0.0
 33
0.0
 16
1.0
 26
0.0
 36
0.0
 17
0.0
 27
1.0
 37
0.0
 76
     0
330
1F
331
29
  0
MLINESTYLE
  5
18
102
{ACAD_REACTORS
330
17
102
}
330
17
100
AcDbMlineStyle
  2
Standard
 70
     0
  3

 62
   256
 51
90.0
 52
90.0
 71
     2
 49
0.5
 62
   256
  6
BYLAYER
 49
-0.5
 62
   256
  6
BYLAYER
  0
ACDBPLACEHOLDER
  5
F
102
{ACAD_REACTORS
330
E
102
}
330
E
  0
SCALE
  5
48
102
{ACAD_REACTORS
330
47
102
}
330
47
100
AcDbScale
 70
     0
300
1:1
140
1.0
141
1.0
290
     1
  0
SCALE
  5
49
102
{ACAD_REACTORS
330
47
102
}
330
47
100
AcDbScale
 70
     0
300
1:2
140
1.0
141
2.0
290
     0
  0
SCALE
  5
4A
102
{ACAD_REACTORS
330
47
102
}
330
47
100
AcDbScale
 70
     0
300
1:4
140
1.0
141
4.0
290
     0
  0
SCALE
  5
4B
102
{ACAD_REACTORS
330
47
102
}
330
47
100
AcDbScale
 70
     0
300
1:5
140
1.0
141
5.0
290
     0
  0
SCALE
  5
4C
102
{ACAD_REACTORS
330
47
102
}
330
47
100
AcDbScale
 70
     0
300
1:8
140
1.0
141
8.0
290
     0
  0
SCALE
  5
4D
102
{ACAD_REACTORS
330
47
102
}
330
47
100
AcDbScale
 70
     0
300
1:10
140
1.0
141
10.0
290
     0
  0
SCALE
  5
4E
102
{ACAD_REACTORS
330
47
102
}
330
47
100
AcDbScale
 70
     0
300
1:16
140
1.0
141
16.0
290
     0
  0
SCALE
  5
4F
102
{ACAD_REACTORS
330
47
102
}
330
47
100
AcDbScale
 70
     0
300
1:20
140
1.0
141
20.0
290
     0
  0
SCALE
  5
50
102
{ACAD_REACTORS
330
47
102
}
330
47
100
AcDbScale
 70
     0
300
1:30
140
1.0
141
30.0
290
     0
  0
SCALE
  5
51
102
{ACAD_REACTORS
330
47
102
}
330
47
100
AcDbScale
 70
     0
300
1:40
140
1.0
141
40.0
290
     0
  0
SCALE
  5
52
102
{ACAD_REACTORS
330
47
102
}
330
47
100
AcDbScale
 70
     0
300
1:50
140
1.0
141
50.0
290
     0
  0
SCALE
  5
53
102
{ACAD_REACTORS
330
47
102
}
330
47
100
AcDbScale
 70
     0
300
1:100
140
1.0
141
100.0
290
     0
  0
SCALE
  5
54
102
{ACAD_REACTORS
330
47
102
}
330
47
100
AcDbScale
 70
     0
300
2:1
140
2.0
141
1.0
290
     0
  0
SCALE
  5
55
102
{ACAD_REACTORS
330
47
102
}
330
47
100
AcDbScale
 70
     0
300
4:1
140
4.0
141
1.0
290
     0
  0
SCALE
  5
56
102
{ACAD_REACTORS
330
47
102
}
330
47
100
AcDbScale
 70
     0
300
8:1
140
8.0
141
1.0
290
     0
  0
SCALE
  5
57
102
{ACAD_REACTORS
330
47
102
}
330
47
100
AcDbScale
 70
     0
300
10:1
140
10.0
141
1.0
290
     0
  0
SCALE
  5
58
102
{ACAD_REACTORS
330
47
102
}
330
47
100
AcDbScale
 70
     0
300
100:1
140
100.0
141
1.0
290
     0
  0
SCALE
  5
59
102
{ACAD_REACTORS
330
47
102
}
330
47
100
AcDbScale
 70
     0
300
1/128" = 1'-0"
140
0.0078125
141
12.0
290
     0
  0
SCALE
  5
5A
102
{ACAD_REACTORS
330
47
102
}
330
47
100
AcDbScale
 70
     0
300
1/64" = 1'-0"
140
0.015625
141
12.0
290
     0
  0
SCALE
  5
5B
102
{ACAD_REACTORS
330
47
102
}
330
47
100
AcDbScale
 70
     0
300
1/32" = 1'-0"
140
0.03125
141
12.0
290
     0
  0
SCALE
  5
5C
102
{ACAD_REACTORS
330
47
102
}
330
47
100
AcDbScale
 70
     0
300
1/16" = 1'-0"
140
0.0625
141
12.0
290
     0
  0
SCALE
  5
5D
102
{ACAD_REACTORS
330
47
102
}
330
47
100
AcDbScale
 70
     0
300
3/32" = 1'-0"
140
0.09375
141
12.0
290
     0
  0
SCALE
  5
5E
102
{ACAD_REACTORS
330
47
102
}
330
47
100
AcDbScale
 70
     0
300
1/8" = 1'-0"
140
0.125
141
12.0
290
     0
  0
SCALE
  5
5F
102
{ACAD_REACTORS
330
47
102
}
330
47
100
AcDbScale
 70
     0
300
3/16" = 1'-0"
140
0.1875
141
12.0
290
     0
  0
SCALE
  5
60
102
{ACAD_REACTORS
330
47
102
}
330
47
100
AcDbScale
 70
     0
300
1/4" = 1'-0"
140
0.25
141
12.0
290
     0
  0
SCALE
  5
61
102
{ACAD_REACTORS
330
47
102
}
330
47
100
AcDbScale
 70
     0
300
3/8" = 1'-0"
140
0.375
141
12.0
290
     0
  0
SCALE
  5
62
102
{ACAD_REACTORS
330
47
102
}
330
47
100
AcDbScale
 70
     0
300
1/2" = 1'-0"
140
0.5
141
12.0
290
     0
  0
SCALE
  5
63
102
{ACAD_REACTORS
330
47
102
}
330
47
100
AcDbScale
 70
     0
300
3/4" = 1'-0"
140
0.75
141
12.0
290
     0
  0
SCALE
  5
64
102
{ACAD_REACTORS
330
47
102
}
330
47
100
AcDbScale
 70
     0
300
1" = 1'-0"
140
1.0
141
12.0
290
     0
  0
SCALE
  5
65
102
{ACAD_REACTORS
330
47
102
}
330
47
100
AcDbScale
 70
     0
300
1-1/2" = 1'-0"
140
1.5
141
12.0
290
     0
  0
SCALE
  5
66
102
{ACAD_REACTORS
330
47
102
}
330
47
100
AcDbScale
 70
     0
300
3" = 1'-0"
140
3.0
141
12.0
290
     0
  0
SCALE
  5
67
102
{ACAD_REACTORS
330
47
102
}
330
47
100
AcDbScale
 70
     0
300
6" = 1'-0"
140
6.0
141
12.0
290
     0
  0
SCALE
  5
68
102
{ACAD_REACTORS
330
47
102
}
330
47
100
AcDbScale
 70
     0
300
1'-0" = 1'-0"
140
12.0
141
12.0
290
     0
  0
ENDSEC
  0
EOF
